ISO-10303-21;
HEADER;
FILE_DESCRIPTION (( 'STEP AP203' ),
    '1' );
FILE_NAME ('ID0515.STEP',
    '2024-03-14T03:04:07',
    ( '' ),
    ( '' ),
    'SwSTEP 2.0',
    'SolidWorks 2022',
    '' );
FILE_SCHEMA (( 'CONFIG_CONTROL_DESIGN' ));
ENDSEC;

DATA;
#1 = DIRECTION ( 'NONE',  ( 0.000000000000000000, 0.000000000000000000, 1.000000000000000000 ) ) ;
#2 = EDGE_CURVE ( 'NONE', #76, #76, #244, .T. ) ;
#3 = PERSON_AND_ORGANIZATION ( #86, #127 ) ;
#4 = FACE_OUTER_BOUND ( 'NONE', #342, .T. ) ;
#5 = APPROVAL ( #144, 'UNSPECIFIED' ) ;
#6 = CARTESIAN_POINT ( 'NONE',  ( 0.2355835729153132885, -0.8764957010411544847, -13.99843722514020605 ) ) ;
#7 = DIRECTION ( 'NONE',  ( 0.000000000000000000, 0.000000000000000000, 1.000000000000000000 ) ) ;
#8 = DIRECTION ( 'NONE',  ( 0.000000000000000000, 0.000000000000000000, -1.000000000000000000 ) ) ;
#9 = FACE_OUTER_BOUND ( 'NONE', #158, .T. ) ;
#10 = LOCAL_TIME ( 11, 4, 7.000000000000000000, #193 ) ;
#11 = ORIENTED_EDGE ( 'NONE', *, *, #41, .T. ) ;
#12 = FACE_OUTER_BOUND ( 'NONE', #62, .T. ) ;
#13 = ORIENTED_EDGE ( 'NONE', *, *, #288, .T. ) ;
#14 = PLANE ( 'NONE',  #90 ) ;
#15 = EDGE_LOOP ( 'NONE', ( #164 ) ) ;
#16 = EDGE_LOOP ( 'NONE', ( #70 ) ) ;
#17 = VERTEX_POINT ( 'NONE', #368 ) ;
#18 = FACE_OUTER_BOUND ( 'NONE', #237, .T. ) ;
#19 = CYLINDRICAL_SURFACE ( 'NONE', #346, 7.500000000000000000 ) ;
#20 = MECHANICAL_CONTEXT ( 'NONE', #97, 'mechanical' ) ;
#21 = PRODUCT_DEFINITION_FORMATION_WITH_SPECIFIED_SOURCE ( 'ANY', '', #176, .NOT_KNOWN. ) ;
#22 = PERSON_AND_ORGANIZATION ( #86, #127 ) ;
#23 = CARTESIAN_POINT ( 'NONE',  ( -0.4536371487327438556, 0.7862137900289858372, -13.99307322049260272 ) ) ;
#24 = CLOSED_SHELL ( 'NONE', ( #153, #53, #27, #271, #36, #300, #121, #106, #173, #360, #350, #79, #226 ) ) ;
#25 = SECURITY_CLASSIFICATION ( '', '', #266 ) ;
#26 = CARTESIAN_POINT ( 'NONE',  ( -0.8767667008943668128, -0.2349205837731642155, -13.97259167038585836 ) ) ;
#27 = ADVANCED_FACE ( 'NONE', ( #281, #162 ), #336, .F. ) ;
#28 = DIRECTION ( 'NONE',  ( 0.000000000000000000, 0.000000000000000000, -1.000000000000000000 ) ) ;
#29 = FACE_OUTER_BOUND ( 'NONE', #73, .T. ) ;
#30 = AXIS2_PLACEMENT_3D ( 'NONE', #274, #356, #215 ) ;
#31 = DIRECTION ( 'NONE',  ( 0.000000000000000000, 0.000000000000000000, -1.000000000000000000 ) ) ;
#32 = DIRECTION ( 'NONE',  ( 0.000000000000000000, 0.000000000000000000, -1.000000000000000000 ) ) ;
#33 = FACE_OUTER_BOUND ( 'NONE', #16, .T. ) ;
#34 = ORIENTED_EDGE ( 'NONE', *, *, #181, .F. ) ;
#35 = CARTESIAN_POINT ( 'NONE',  ( 0.000000000000000000, 0.000000000000000000, -27.69999999999999929 ) ) ;
#36 = ADVANCED_FACE ( 'NONE', ( #136, #18 ), #75, .F. ) ;
#37 = CIRCLE ( 'NONE', #258, 7.500000000000000000 ) ;
#38 = LOCAL_TIME ( 11, 4, 7.000000000000000000, #148 ) ;
#39 = EDGE_LOOP ( 'NONE', ( #254 ) ) ;
#40 = DIRECTION ( 'NONE',  ( 0.000000000000000000, -0.000000000000000000, -1.000000000000000000 ) ) ;
#41 = EDGE_CURVE ( 'NONE', #259, #259, #195, .T. ) ;
#42 = EDGE_LOOP ( 'NONE', ( #276 ) ) ;
#43 = DIRECTION ( 'NONE',  ( -0.000000000000000000, 1.000000000000000000, -0.000000000000000000 ) ) ;
#44 = VERTEX_POINT ( 'NONE', #170 ) ;
#45 = ORIENTED_EDGE ( 'NONE', *, *, #181, .T. ) ;
#46 = CARTESIAN_POINT ( 'NONE',  ( 0.000000000000000000, 4.500000000000000000, 7.500000000000000000 ) ) ;
#47 = CARTESIAN_POINT ( 'NONE',  ( -0.8762852201793974727, 0.2363593682071166990, -13.97262131699892684 ) ) ;
#48 = CARTESIAN_POINT ( 'NONE',  ( 0.000000000000000000, -2.500000000000000444, 0.2500000000000002220 ) ) ;
#49 = CARTESIAN_POINT ( 'NONE',  ( -0.9000000000000000222, 0.000000000000000000, -23.00000000000000000 ) ) ;
#50 = EDGE_CURVE ( 'NONE', #341, #341, #207, .T. ) ;
#51 = CIRCLE ( 'NONE', #269, 14.00000000000000000 ) ;
#52 = PERSON_AND_ORGANIZATION_ROLE ( 'classification_officer' ) ;
#53 = ADVANCED_FACE ( 'NONE', ( #370, #183 ), #120, .T. ) ;
#54 = DATE_AND_TIME ( #116, #221 ) ;
#55 = CARTESIAN_POINT ( 'NONE',  ( -0.7866413855136902278, -0.4528828315079055922, -13.97795525696553653 ) ) ;
#56 = COORDINATED_UNIVERSAL_TIME_OFFSET ( 8, 0, .AHEAD. ) ;
#57 = DIRECTION ( 'NONE',  ( 0.000000000000000000, 0.000000000000000000, -1.000000000000000000 ) ) ;
#58 = AXIS2_PLACEMENT_3D ( 'NONE', #295, #349, #87 ) ;
#59 = DIRECTION ( 'NONE',  ( 0.000000000000000000, 1.000000000000000000, 0.000000000000000000 ) ) ;
#60 = CARTESIAN_POINT ( 'NONE',  ( 0.7865927044463251194, 0.4530097799512236012, -13.97795818732793727 ) ) ;
#61 = DIRECTION ( 'NONE',  ( 0.000000000000000000, 0.000000000000000000, 1.000000000000000000 ) ) ;
#62 = EDGE_LOOP ( 'NONE', ( #139 ) ) ;
#63 = DIRECTION ( 'NONE',  ( 0.000000000000000000, 0.000000000000000000, -1.000000000000000000 ) ) ;
#64 = CARTESIAN_POINT ( 'NONE',  ( 0.000000000000000000, -4.500000000000000000, 0.000000000000000000 ) ) ;
#65 = FACE_OUTER_BOUND ( 'NONE', #362, .T. ) ;
#66 = EDGE_LOOP ( 'NONE', ( #283 ) ) ;
#67 = CC_DESIGN_PERSON_AND_ORGANIZATION_ASSIGNMENT ( #85, #52, ( #25 ) ) ;
#68 = AXIS2_PLACEMENT_3D ( 'NONE', #157, #133, #61 ) ;
#69 = CARTESIAN_POINT ( 'NONE',  ( 0.000000000000000000, 4.500000000000000000, 0.000000000000000000 ) ) ;
#70 = ORIENTED_EDGE ( 'NONE', *, *, #278, .T. ) ;
#71 = VERTEX_POINT ( 'NONE', #113 ) ;
#72 = CARTESIAN_POINT ( 'NONE',  ( 0.000000000000000000, 0.000000000000000000, 0.000000000000000000 ) ) ;
#73 = EDGE_LOOP ( 'NONE', ( #248 ) ) ;
#74 = DIRECTION ( 'NONE',  ( -1.000000000000000000, 0.000000000000000000, 0.000000000000000000 ) ) ;
#75 = CYLINDRICAL_SURFACE ( 'NONE', #291, 7.500000000000000000 ) ;
#76 = VERTEX_POINT ( 'NONE', #316 ) ;
#77 = CARTESIAN_POINT ( 'NONE',  ( 0.8763149447867981667, -0.2365713141324924385, -13.97262058155612863 ) ) ;
#78 = APPROVAL_ROLE ( '' ) ;
#79 = ADVANCED_FACE ( 'NONE', ( #234, #29 ), #286, .F. ) ;
#80 = AXIS2_PLACEMENT_3D ( 'NONE', #145, #292, #182 ) ;
#81 = AXIS2_PLACEMENT_3D ( 'NONE', #69, #94, #242 ) ;
#82 = APPROVAL_ROLE ( '' ) ;
#83 = FACE_OUTER_BOUND ( 'NONE', #66, .T. ) ;
#84 = CC_DESIGN_DATE_AND_TIME_ASSIGNMENT ( #262, #373, ( #25 ) ) ;
#85 = PERSON_AND_ORGANIZATION ( #86, #127 ) ;
#86 = PERSON ( 'UNSPECIFIED', 'UNSPECIFIED', 'UNSPECIFIED', ('UNSPECIFIED'), ('UNSPECIFIED'), ('UNSPECIFIED') ) ;
#87 = DIRECTION ( 'NONE',  ( -1.000000000000000000, 0.000000000000000000, 0.000000000000000000 ) ) ;
#88 = AXIS2_PLACEMENT_3D ( 'NONE', #190, #285, #315 ) ;
#89 = ORIENTED_EDGE ( 'NONE', *, *, #302, .T. ) ;
#90 = AXIS2_PLACEMENT_3D ( 'NONE', #100, #245, #243 ) ;
#91 = DATE_AND_TIME ( #376, #38 ) ;
#92 = CARTESIAN_POINT ( 'NONE',  ( 1.355252715606880543E-17, 0.9000000000000002442, -14.00000000000000178 ) ) ;
#93 = CARTESIAN_POINT ( 'NONE',  ( -0.7206745909773286662, -0.5520366771884365198, -13.98169139055359622 ) ) ;
#94 = DIRECTION ( 'NONE',  ( -0.000000000000000000, -1.000000000000000000, -0.000000000000000000 ) ) ;
#95 = FACE_OUTER_BOUND ( 'NONE', #130, .T. ) ;
#96 = FACE_OUTER_BOUND ( 'NONE', #42, .T. ) ;
#97 = APPLICATION_CONTEXT ( 'configuration controlled 3d designs of mechanical parts and assemblies' ) ;
#98 = ORIENTED_EDGE ( 'NONE', *, *, #2, .F. ) ;
#99 = CC_DESIGN_DATE_AND_TIME_ASSIGNMENT ( #91, #177, ( #338 ) ) ;
#100 = CARTESIAN_POINT ( 'NONE',  ( 0.000000000000000000, 0.000000000000000000, -28.00000000000000000 ) ) ;
#101 = ORIENTED_EDGE ( 'NONE', *, *, #288, .F. ) ;
#102 = CYLINDRICAL_SURFACE ( 'NONE', #30, 1.500000000000000222 ) ;
#103 = APPROVAL_PERSON_ORGANIZATION ( #114, #5, #78 ) ;
#104 = EDGE_LOOP ( 'NONE', ( #250 ) ) ;
#105 = CARTESIAN_POINT ( 'NONE',  ( 0.000000000000000000, 0.9000000000000000222, -14.00000000000000000 ) ) ;
#106 = ADVANCED_FACE ( 'NONE', ( #293, #152 ), #19, .F. ) ;
#107 = EDGE_LOOP ( 'NONE', ( #359 ) ) ;
#108 = VERTEX_POINT ( 'NONE', #196 ) ;
#109 = APPROVAL ( #337, 'UNSPECIFIED' ) ;
#110 = ORIENTED_EDGE ( 'NONE', *, *, #41, .F. ) ;
#111 = AXIS2_PLACEMENT_3D ( 'NONE', #297, #358, #40 ) ;
#112 = CARTESIAN_POINT ( 'NONE',  ( -0.1178049600568343985, -0.8999577329703173367, -13.99999728283397893 ) ) ;
#113 = CARTESIAN_POINT ( 'NONE',  ( 0.000000000000000000, -2.500000000000000444, 7.500000000000000000 ) ) ;
#114 = PERSON_AND_ORGANIZATION ( #86, #127 ) ;
#115 = CIRCLE ( 'NONE', #68, 0.2500000000000002220 ) ;
#116 = CALENDAR_DATE ( 2024, 14, 3 ) ;
#117 = CARTESIAN_POINT ( 'NONE',  ( 0.4709370164557146743, 0.8021186513818195918, -13.99306326813062284 ) ) ;
#118 = CARTESIAN_POINT ( 'NONE',  ( 0.4522610152195165045, -0.7868953601869705938, -13.99311274663829963 ) ) ;
#119 = ORIENTED_EDGE ( 'NONE', *, *, #50, .T. ) ;
#120 = PLANE ( 'NONE',  #251 ) ;
#121 = ADVANCED_FACE ( 'NONE', ( #322, #4 ), #179, .T. ) ;
#122 = CC_DESIGN_SECURITY_CLASSIFICATION ( #25, ( #21 ) ) ;
#123 = CARTESIAN_POINT ( 'NONE',  ( 0.7198835866590913568, 0.5527762863487752920, -13.98172621483136524 ) ) ;
#124 = FACE_BOUND ( 'NONE', #227, .T. ) ;
#125 = FACE_OUTER_BOUND ( 'NONE', #305, .T. ) ;
#126 = AXIS2_PLACEMENT_3D ( 'NONE', #189, #161, #63 ) ;
#127 = ORGANIZATION ( 'UNSPECIFIED', 'UNSPECIFIED', '' ) ;
#128 = CARTESIAN_POINT ( 'NONE',  ( 0.000000000000000000, -3.500000000000000444, 0.000000000000000000 ) ) ;
#129 = EDGE_CURVE ( 'NONE', #364, #364, #142, .T. ) ;
#130 = EDGE_LOOP ( 'NONE', ( #223 ) ) ;
#131 = DIRECTION ( 'NONE',  ( 0.000000000000000000, -1.000000000000000000, 0.000000000000000000 ) ) ;
#132 = CARTESIAN_POINT ( 'NONE',  ( 0.000000000000000000, -4.500000000000000000, 0.000000000000000000 ) ) ;
#133 = DIRECTION ( 'NONE',  ( 0.000000000000000000, 1.000000000000000000, 0.000000000000000000 ) ) ;
#134 = EDGE_LOOP ( 'NONE', ( #119 ) ) ;
#135 = AXIS2_PLACEMENT_3D ( 'NONE', #197, #149, #1 ) ;
#136 = FACE_OUTER_BOUND ( 'NONE', #104, .T. ) ;
#137 = DATE_AND_TIME ( #143, #10 ) ;
#138 = DESIGN_CONTEXT ( 'detailed design', #210, 'design' ) ;
#139 = ORIENTED_EDGE ( 'NONE', *, *, #235, .T. ) ;
#140 = DIRECTION ( 'NONE',  ( 0.000000000000000000, 0.000000000000000000, 1.000000000000000000 ) ) ;
#141 = CARTESIAN_POINT ( 'NONE',  ( -0.2356682151272364578, 0.8765724606219720272, -13.99844081707517951 ) ) ;
#142 = B_SPLINE_CURVE_WITH_KNOTS ( 'NONE', 3,
 ( #92, #236, #141, #23, #178, #265, #353, #47, #171, #290, #26, #55, #93, #209, #206, #267, #112, #147, #6, #118, #199, #239, #352, #77, #257, #377, #324, #60, #123, #117, #211, #344 ),
 .UNSPECIFIED., .T., .F.,
 ( 4, 2, 2, 2, 2, 2, 2, 2, 2, 2, 2, 2, 2, 2, 2, 4 ),
 ( 0.000000000000000000, 0.0003517766444469268543, 0.0007035532888938537087, 0.001055329933340780563, 0.001407106577787707417, 0.001758883222234634489, 0.002110659866681561126, 0.002462436511128488197, 0.002814213155575415702, 0.003165989800022343207, 0.003517766444469269411, 0.003869543088916196482, 0.004221319733363123987, 0.004573096377810051058, 0.004924873022256977262, 0.005628426311150832272 ),
 .UNSPECIFIED. ) ;
#143 = CALENDAR_DATE ( 2024, 14, 3 ) ;
#144 = APPROVAL_STATUS ( 'not_yet_approved' ) ;
#145 = CARTESIAN_POINT ( 'NONE',  ( 0.000000000000000000, 0.000000000000000000, -23.00000000000000000 ) ) ;
#146 = LOCAL_TIME ( 11, 4, 7.000000000000000000, #56 ) ;
#147 = CARTESIAN_POINT ( 'NONE',  ( 0.1171582537913774397, -0.9000421508549587557, -14.00000270969764316 ) ) ;
#148 = COORDINATED_UNIVERSAL_TIME_OFFSET ( 8, 0, .AHEAD. ) ;
#149 = DIRECTION ( 'NONE',  ( 0.000000000000000000, 1.000000000000000000, 0.000000000000000000 ) ) ;
#150 = ADVANCED_BREP_SHAPE_REPRESENTATION ( 'ID0515', ( #198, #313 ), #213 ) ;
#151 = PERSON_AND_ORGANIZATION_ROLE ( 'design_supplier' ) ;
#152 = FACE_OUTER_BOUND ( 'NONE', #188, .T. ) ;
#153 = ADVANCED_FACE ( 'NONE', ( #348, #83 ), #204, .F. ) ;
#154 = CIRCLE ( 'NONE', #284, 7.500000000000000000 ) ;
#155 = DIRECTION ( 'NONE',  ( -1.000000000000000000, 0.000000000000000000, 0.000000000000000000 ) ) ;
#156 = DIRECTION ( 'NONE',  ( -1.000000000000000000, 0.000000000000000000, 0.000000000000000000 ) ) ;
#157 = CARTESIAN_POINT ( 'NONE',  ( 0.000000000000000000, -2.500000000000000444, 0.000000000000000000 ) ) ;
#158 = EDGE_LOOP ( 'NONE', ( #98 ) ) ;
#159 = AXIS2_PLACEMENT_3D ( 'NONE', #229, #57, #268 ) ;
#160 = AXIS2_PLACEMENT_3D ( 'NONE', #35, #311, #74 ) ;
#161 = DIRECTION ( 'NONE',  ( -0.000000000000000000, -1.000000000000000000, -0.000000000000000000 ) ) ;
#162 = FACE_OUTER_BOUND ( 'NONE', #218, .T. ) ;
#163 = DIRECTION ( 'NONE',  ( 0.000000000000000000, 0.000000000000000000, -1.000000000000000000 ) ) ;
#164 = ORIENTED_EDGE ( 'NONE', *, *, #50, .F. ) ;
#165 = DIRECTION ( 'NONE',  ( 1.000000000000000000, 0.000000000000000000, 0.000000000000000000 ) ) ;
#166 = DIRECTION ( 'NONE',  ( 0.000000000000000000, 0.000000000000000000, 1.000000000000000000 ) ) ;
#167 = PRODUCT_RELATED_PRODUCT_CATEGORY ( 'detail', '', ( #176 ) ) ;
#168 = VERTEX_POINT ( 'NONE', #335 ) ;
#169 = ORIENTED_EDGE ( 'NONE', *, *, #129, .F. ) ;
#170 = CARTESIAN_POINT ( 'NONE',  ( -1.500000000000000222, 0.000000000000000000, -23.00000000000000000 ) ) ;
#171 = CARTESIAN_POINT ( 'NONE',  ( -0.8999367662334673001, 0.1179051504349536983, -13.97104555216895427 ) ) ;
#172 = VERTEX_POINT ( 'NONE', #191 ) ;
#173 = ADVANCED_FACE ( 'NONE', ( #307, #12 ), #325, .T. ) ;
#174 = CARTESIAN_POINT ( 'NONE',  ( 0.000000000000000000, -3.499999999999999556, -7.500000000000000000 ) ) ;
#175 = AXIS2_PLACEMENT_3D ( 'NONE', #128, #131, #163 ) ;
#176 = PRODUCT ( 'ID0515', 'ID0515', '', ( #20 ) ) ;
#177 = DATE_TIME_ROLE ( 'creation_date' ) ;
#178 = CARTESIAN_POINT ( 'NONE',  ( -0.5534569740320874898, 0.7193509709158540932, -13.98930264733182582 ) ) ;
#179 = CYLINDRICAL_SURFACE ( 'NONE', #159, 0.9000000000000000222 ) ;
#180 = APPROVAL_PERSON_ORGANIZATION ( #22, #109, #282 ) ;
#181 = EDGE_CURVE ( 'NONE', #372, #372, #115, .T. ) ;
#182 = DIRECTION ( 'NONE',  ( -1.000000000000000000, 0.000000000000000000, -0.000000000000000000 ) ) ;
#183 = FACE_OUTER_BOUND ( 'NONE', #365, .T. ) ;
#184 = FACE_OUTER_BOUND ( 'NONE', #225, .T. ) ;
#185 = CARTESIAN_POINT ( 'NONE',  ( 0.000000000000000000, 4.500000000000000000, 0.000000000000000000 ) ) ;
#186 = CARTESIAN_POINT ( 'NONE',  ( 0.000000000000000000, -2.500000000000000444, 0.000000000000000000 ) ) ;
#187 = DIRECTION ( 'NONE',  ( 0.000000000000000000, 1.000000000000000000, 0.000000000000000000 ) ) ;
#188 = EDGE_LOOP ( 'NONE', ( #357 ) ) ;
#189 = CARTESIAN_POINT ( 'NONE',  ( 0.000000000000000000, 4.500000000000000000, 0.000000000000000000 ) ) ;
#190 = CARTESIAN_POINT ( 'NONE',  ( 0.000000000000000000, 0.000000000000000000, -28.00000000000000000 ) ) ;
#191 = CARTESIAN_POINT ( 'NONE',  ( 0.000000000000000000, -3.500000000000000444, -0.2500000000000002220 ) ) ;
#192 = DIRECTION ( 'NONE',  ( 0.000000000000000000, -0.000000000000000000, 1.000000000000000000 ) ) ;
#193 = COORDINATED_UNIVERSAL_TIME_OFFSET ( 8, 0, .AHEAD. ) ;
#194 = ORIENTED_EDGE ( 'NONE', *, *, #275, .F. ) ;
#195 = CIRCLE ( 'NONE', #135, 14.00000000000000000 ) ;
#196 = CARTESIAN_POINT ( 'NONE',  ( 0.000000000000000000, -4.500000000000000000, -7.500000000000000000 ) ) ;
#197 = CARTESIAN_POINT ( 'NONE',  ( 0.000000000000000000, -4.500000000000000000, 0.000000000000000000 ) ) ;
#198 = MANIFOLD_SOLID_BREP ( '¶ê¨¤1', #24 ) ;
#199 = CARTESIAN_POINT ( 'NONE',  ( 0.5527232330766863599, -0.7199077900964133692, -13.98933199649239256 ) ) ;
#200 = VERTEX_POINT ( 'NONE', #46 ) ;
#201 = APPROVAL_STATUS ( 'not_yet_approved' ) ;
#202 = DATE_AND_TIME ( #320, #334 ) ;
#203 = APPROVAL ( #201, 'UNSPECIFIED' ) ;
#204 = CYLINDRICAL_SURFACE ( 'NONE', #126, 0.2500000000000002220 ) ;
#205 = APPROVAL_DATE_TIME ( #54, #5 ) ;
#206 = CARTESIAN_POINT ( 'NONE',  ( -0.4537005442555572254, -0.7861852651301376449, -13.99307154550558963 ) ) ;
#207 = CIRCLE ( 'NONE', #58, 0.9000000000000000222 ) ;
#208 = CC_DESIGN_PERSON_AND_ORGANIZATION_ASSIGNMENT ( #264, #151, ( #21 ) ) ;
#209 = CARTESIAN_POINT ( 'NONE',  ( -0.5527294565683654737, -0.7201433932788867676, -13.98933723071262847 ) ) ;
#210 = APPLICATION_CONTEXT ( 'configuration controlled 3d designs of mechanical parts and assemblies' ) ;
#211 = CARTESIAN_POINT ( 'NONE',  ( 0.2378990834997412596, 0.9000000000000003553, -13.99999999999999822 ) ) ;
#212 = CARTESIAN_POINT ( 'NONE',  ( 0.000000000000000000, 4.500000000000000000, 0.000000000000000000 ) ) ;
#213 =( GEOMETRIC_REPRESENTATION_CONTEXT ( 3 ) GLOBAL_UNCERTAINTY_ASSIGNED_CONTEXT ( ( #261 ) ) GLOBAL_UNIT_ASSIGNED_CONTEXT ( ( #287, #309, #253 ) ) REPRESENTATION_CONTEXT ( 'NONE', 'WORKASPACE' ) );
#214 = CARTESIAN_POINT ( 'NONE',  ( 0.000000000000000000, 0.000000000000000000, -23.00000000000000000 ) ) ;
#215 = DIRECTION ( 'NONE',  ( 1.000000000000000000, 0.000000000000000000, 0.000000000000000000 ) ) ;
#216 = EDGE_LOOP ( 'NONE', ( #340 ) ) ;
#217 = DIRECTION ( 'NONE',  ( 0.000000000000000000, -1.000000000000000000, 0.000000000000000000 ) ) ;
#218 = EDGE_LOOP ( 'NONE', ( #110 ) ) ;
#219 = AXIS2_PLACEMENT_3D ( 'NONE', #214, #8, #156 ) ;
#220 = CC_DESIGN_PERSON_AND_ORGANIZATION_ASSIGNMENT ( #318, #289, ( #176 ) ) ;
#221 = LOCAL_TIME ( 11, 4, 7.000000000000000000, #319 ) ;
#222 = CARTESIAN_POINT ( 'NONE',  ( 0.000000000000000000, -4.500000000000000000, 14.00000000000000000 ) ) ;
#223 = ORIENTED_EDGE ( 'NONE', *, *, #363, .T. ) ;
#224 = EDGE_CURVE ( 'NONE', #108, #108, #37, .T. ) ;
#225 = EDGE_LOOP ( 'NONE', ( #101 ) ) ;
#226 = ADVANCED_FACE ( 'NONE', ( #277, #9 ), #327, .T. ) ;
#227 = EDGE_LOOP ( 'NONE', ( #256 ) ) ;
#228 = CC_DESIGN_APPROVAL ( #109, ( #338 ) ) ;
#229 = CARTESIAN_POINT ( 'NONE',  ( 0.000000000000000000, 0.000000000000000000, -12.00000000000000000 ) ) ;
#230 = COORDINATED_UNIVERSAL_TIME_OFFSET ( 8, 0, .AHEAD. ) ;
#231 = AXIS2_PLACEMENT_3D ( 'NONE', #273, #187, #361 ) ;
#232 = CC_DESIGN_APPROVAL ( #5, ( #25 ) ) ;
#233 = PERSON_AND_ORGANIZATION ( #86, #127 ) ;
#234 = FACE_BOUND ( 'NONE', #134, .T. ) ;
#235 = EDGE_CURVE ( 'NONE', #314, #314, #374, .T. ) ;
#236 = CARTESIAN_POINT ( 'NONE',  ( -0.1189495417498705049, 0.9000000000000001332, -14.00000000000000178 ) ) ;
#237 = EDGE_LOOP ( 'NONE', ( #89 ) ) ;
#238 = SHAPE_DEFINITION_REPRESENTATION ( #339, #150 ) ;
#239 = CARTESIAN_POINT ( 'NONE',  ( 0.7188367395411181526, -0.5541154577433670125, -13.98178051688533330 ) ) ;
#240 = APPROVAL_PERSON_ORGANIZATION ( #233, #203, #82 ) ;
#241 = DIRECTION ( 'NONE',  ( 0.000000000000000000, -0.000000000000000000, 1.000000000000000000 ) ) ;
#242 = DIRECTION ( 'NONE',  ( 0.000000000000000000, 0.000000000000000000, -1.000000000000000000 ) ) ;
#243 = DIRECTION ( 'NONE',  ( -1.000000000000000000, 0.000000000000000000, -0.000000000000000000 ) ) ;
#244 = CIRCLE ( 'NONE', #88, 1.200000000000000400 ) ;
#245 = DIRECTION ( 'NONE',  ( 0.000000000000000000, 0.000000000000000000, -1.000000000000000000 ) ) ;
#246 = ORIENTED_EDGE ( 'NONE', *, *, #235, .F. ) ;
#247 = PLANE ( 'NONE',  #231 ) ;
#248 = ORIENTED_EDGE ( 'NONE', *, *, #278, .F. ) ;
#249 = DIRECTION ( 'NONE',  ( 0.000000000000000000, 0.000000000000000000, -1.000000000000000000 ) ) ;
#250 = ORIENTED_EDGE ( 'NONE', *, *, #296, .F. ) ;
#251 = AXIS2_PLACEMENT_3D ( 'NONE', #263, #59, #241 ) ;
#252 = CIRCLE ( 'NONE', #306, 7.500000000000000000 ) ;
#253 =( NAMED_UNIT ( * ) SI_UNIT ( $, .STERADIAN. ) SOLID_ANGLE_UNIT ( ) );
#254 = ORIENTED_EDGE ( 'NONE', *, *, #302, .F. ) ;
#255 = APPROVAL_DATE_TIME ( #137, #109 ) ;
#256 = ORIENTED_EDGE ( 'NONE', *, *, #129, .T. ) ;
#257 = CARTESIAN_POINT ( 'NONE',  ( 0.8998814548509725952, -0.1196758210391670740, -13.97104911526764504 ) ) ;
#258 = AXIS2_PLACEMENT_3D ( 'NONE', #64, #354, #31 ) ;
#259 = VERTEX_POINT ( 'NONE', #222 ) ;
#260 = PERSON_AND_ORGANIZATION_ROLE ( 'creator' ) ;
#261 = UNCERTAINTY_MEASURE_WITH_UNIT (LENGTH_MEASURE( 1.000000000000000082E-05 ), #287, 'distance_accuracy_value', 'NONE');
#262 = DATE_AND_TIME ( #345, #146 ) ;
#263 = CARTESIAN_POINT ( 'NONE',  ( 0.000000000000000000, 4.500000000000000000, 0.000000000000000000 ) ) ;
#264 = PERSON_AND_ORGANIZATION ( #86, #127 ) ;
#265 = CARTESIAN_POINT ( 'NONE',  ( -0.7194559357023176949, 0.5533205201734699985, -13.98174832906573961 ) ) ;
#266 = SECURITY_CLASSIFICATION_LEVEL ( 'unclassified' ) ;
#267 = CARTESIAN_POINT ( 'NONE',  ( -0.2356340254086637387, -0.8765888780011078518, -13.99844177283905822 ) ) ;
#268 = DIRECTION ( 'NONE',  ( -1.000000000000000000, 0.000000000000000000, 0.000000000000000000 ) ) ;
#269 = AXIS2_PLACEMENT_3D ( 'NONE', #212, #328, #303 ) ;
#270 = CC_DESIGN_APPROVAL ( #203, ( #21 ) ) ;
#271 = ADVANCED_FACE ( 'NONE', ( #124, #184, #65 ), #355, .T. ) ;
#272 = CARTESIAN_POINT ( 'NONE',  ( 0.000000000000000000, -3.499999999999999556, 0.000000000000000000 ) ) ;
#273 = CARTESIAN_POINT ( 'NONE',  ( 0.000000000000000000, -2.500000000000000444, 0.000000000000000000 ) ) ;
#274 = CARTESIAN_POINT ( 'NONE',  ( 0.000000000000000000, 0.000000000000000000, -28.00000000000000000 ) ) ;
#275 = EDGE_CURVE ( 'NONE', #172, #172, #332, .T. ) ;
#276 = ORIENTED_EDGE ( 'NONE', *, *, #296, .T. ) ;
#277 = FACE_OUTER_BOUND ( 'NONE', #107, .T. ) ;
#278 = EDGE_CURVE ( 'NONE', #44, #44, #323, .T. ) ;
#279 = EDGE_LOOP ( 'NONE', ( #45 ) ) ;
#280 = DIRECTION ( 'NONE',  ( 0.000000000000000000, 0.000000000000000000, 1.000000000000000000 ) ) ;
#281 = FACE_BOUND ( 'NONE', #216, .T. ) ;
#282 = APPROVAL_ROLE ( '' ) ;
#283 = ORIENTED_EDGE ( 'NONE', *, *, #275, .T. ) ;
#284 = AXIS2_PLACEMENT_3D ( 'NONE', #185, #299, #280 ) ;
#285 = DIRECTION ( 'NONE',  ( 0.000000000000000000, 0.000000000000000000, -1.000000000000000000 ) ) ;
#286 = PLANE ( 'NONE',  #80 ) ;
#287 =( LENGTH_UNIT ( ) NAMED_UNIT ( * ) SI_UNIT ( .MILLI., .METRE. ) );
#288 = EDGE_CURVE ( 'NONE', #168, #168, #51, .T. ) ;
#289 = PERSON_AND_ORGANIZATION_ROLE ( 'design_owner' ) ;
#290 = CARTESIAN_POINT ( 'NONE',  ( -0.9000629738353632670, -0.1169378076093545993, -13.97103742200733301 ) ) ;
#291 = AXIS2_PLACEMENT_3D ( 'NONE', #310, #43, #166 ) ;
#292 = DIRECTION ( 'NONE',  ( 0.000000000000000000, 0.000000000000000000, -1.000000000000000000 ) ) ;
#293 = FACE_OUTER_BOUND ( 'NONE', #333, .T. ) ;
#294 = APPROVAL_DATE_TIME ( #202, #203 ) ;
#295 = CARTESIAN_POINT ( 'NONE',  ( 0.000000000000000000, 0.000000000000000000, -23.00000000000000000 ) ) ;
#296 = EDGE_CURVE ( 'NONE', #71, #71, #252, .T. ) ;
#297 = CARTESIAN_POINT ( 'NONE',  ( 0.000000000000000000, -3.499999999999999556, 0.000000000000000000 ) ) ;
#298 = CC_DESIGN_PERSON_AND_ORGANIZATION_ASSIGNMENT ( #366, #260, ( #338 ) ) ;
#299 = DIRECTION ( 'NONE',  ( 0.000000000000000000, 1.000000000000000000, 0.000000000000000000 ) ) ;
#300 = ADVANCED_FACE ( 'NONE', ( #301, #96 ), #247, .T. ) ;
#301 = FACE_BOUND ( 'NONE', #367, .T. ) ;
#302 = EDGE_CURVE ( 'NONE', #200, #200, #154, .T. ) ;
#303 = DIRECTION ( 'NONE',  ( 0.000000000000000000, 0.000000000000000000, 1.000000000000000000 ) ) ;
#304 = AXIS2_PLACEMENT_3D ( 'NONE', #272, #217, #32 ) ;
#305 = EDGE_LOOP ( 'NONE', ( #312 ) ) ;
#306 = AXIS2_PLACEMENT_3D ( 'NONE', #186, #326, #7 ) ;
#307 = FACE_BOUND ( 'NONE', #330, .T. ) ;
#308 = DIRECTION ( 'NONE',  ( 0.000000000000000000, 1.000000000000000000, 0.000000000000000000 ) ) ;
#309 =( NAMED_UNIT ( * ) PLANE_ANGLE_UNIT ( ) SI_UNIT ( $, .RADIAN. ) );
#310 = CARTESIAN_POINT ( 'NONE',  ( 0.000000000000000000, -2.500000000000000444, 0.000000000000000000 ) ) ;
#311 = DIRECTION ( 'NONE',  ( -0.000000000000000000, -0.000000000000000000, 1.000000000000000000 ) ) ;
#312 = ORIENTED_EDGE ( 'NONE', *, *, #2, .T. ) ;
#313 = AXIS2_PLACEMENT_3D ( 'NONE', #72, #140, #165 ) ;
#314 = VERTEX_POINT ( 'NONE', #174 ) ;
#315 = DIRECTION ( 'NONE',  ( -1.000000000000000000, 0.000000000000000000, 0.000000000000000000 ) ) ;
#316 = CARTESIAN_POINT ( 'NONE',  ( -1.200000000000000400, 0.000000000000000000, -28.00000000000000000 ) ) ;
#317 = CARTESIAN_POINT ( 'NONE',  ( 0.000000000000000000, -3.499999999999999556, 0.000000000000000000 ) ) ;
#318 = PERSON_AND_ORGANIZATION ( #86, #127 ) ;
#319 = COORDINATED_UNIVERSAL_TIME_OFFSET ( 8, 0, .AHEAD. ) ;
#320 = CALENDAR_DATE ( 2024, 14, 3 ) ;
#321 = DIRECTION ( 'NONE',  ( -0.000000000000000000, -1.000000000000000000, -0.000000000000000000 ) ) ;
#322 = FACE_OUTER_BOUND ( 'NONE', #15, .T. ) ;
#323 = CIRCLE ( 'NONE', #219, 1.500000000000000222 ) ;
#324 = CARTESIAN_POINT ( 'NONE',  ( 0.8768358949347988540, 0.2347440239357131975, -13.97258751923673792 ) ) ;
#325 = PLANE ( 'NONE',  #111 ) ;
#326 = DIRECTION ( 'NONE',  ( 0.000000000000000000, 1.000000000000000000, 0.000000000000000000 ) ) ;
#327 = TOROIDAL_SURFACE ( 'NONE', #331, 1.200000000000000400, 0.2999999999999999889 ) ;
#328 = DIRECTION ( 'NONE',  ( 0.000000000000000000, 1.000000000000000000, 0.000000000000000000 ) ) ;
#329 = CARTESIAN_POINT ( 'NONE',  ( 0.000000000000000000, 0.000000000000000000, -27.69999999999999929 ) ) ;
#330 = EDGE_LOOP ( 'NONE', ( #194 ) ) ;
#331 = AXIS2_PLACEMENT_3D ( 'NONE', #329, #249, #155 ) ;
#332 = CIRCLE ( 'NONE', #175, 0.2500000000000002220 ) ;
#333 = EDGE_LOOP ( 'NONE', ( #246 ) ) ;
#334 = LOCAL_TIME ( 11, 4, 7.000000000000000000, #230 ) ;
#335 = CARTESIAN_POINT ( 'NONE',  ( 0.000000000000000000, 4.500000000000000000, 14.00000000000000000 ) ) ;
#336 = PLANE ( 'NONE',  #351 ) ;
#337 = APPROVAL_STATUS ( 'not_yet_approved' ) ;
#338 = PRODUCT_DEFINITION ( 'UNKNOWN', '', #21, #138 ) ;
#339 = PRODUCT_DEFINITION_SHAPE ( 'NONE', 'NONE',  #338 ) ;
#340 = ORIENTED_EDGE ( 'NONE', *, *, #224, .F. ) ;
#341 = VERTEX_POINT ( 'NONE', #49 ) ;
#342 = EDGE_LOOP ( 'NONE', ( #169 ) ) ;
#343 = APPLICATION_PROTOCOL_DEFINITION ( 'international standard', 'config_control_design', 1994, #210 ) ;
#344 = CARTESIAN_POINT ( 'NONE',  ( 1.355252715606880543E-17, 0.9000000000000002442, -14.00000000000000178 ) ) ;
#345 = CALENDAR_DATE ( 2024, 14, 3 ) ;
#346 = AXIS2_PLACEMENT_3D ( 'NONE', #317, #321, #28 ) ;
#347 = PERSON_AND_ORGANIZATION_ROLE ( 'creator' ) ;
#348 = FACE_OUTER_BOUND ( 'NONE', #279, .T. ) ;
#349 = DIRECTION ( 'NONE',  ( 0.000000000000000000, 0.000000000000000000, -1.000000000000000000 ) ) ;
#350 = ADVANCED_FACE ( 'NONE', ( #125 ), #14, .T. ) ;
#351 = AXIS2_PLACEMENT_3D ( 'NONE', #132, #308, #192 ) ;
#352 = CARTESIAN_POINT ( 'NONE',  ( 0.7858370763145369198, -0.4542619933655954179, -13.97800106911113183 ) ) ;
#353 = CARTESIAN_POINT ( 'NONE',  ( -0.7865049633580986077, 0.4529365084172379263, -13.97796237646856277 ) ) ;
#354 = DIRECTION ( 'NONE',  ( 0.000000000000000000, -1.000000000000000000, 0.000000000000000000 ) ) ;
#355 = CYLINDRICAL_SURFACE ( 'NONE', #81, 14.00000000000000000 ) ;
#356 = DIRECTION ( 'NONE',  ( -0.000000000000000000, -0.000000000000000000, 1.000000000000000000 ) ) ;
#357 = ORIENTED_EDGE ( 'NONE', *, *, #224, .T. ) ;
#358 = DIRECTION ( 'NONE',  ( 0.000000000000000000, -1.000000000000000000, 0.000000000000000000 ) ) ;
#359 = ORIENTED_EDGE ( 'NONE', *, *, #363, .F. ) ;
#360 = ADVANCED_FACE ( 'NONE', ( #95, #33 ), #102, .T. ) ;
#361 = DIRECTION ( 'NONE',  ( 0.000000000000000000, -0.000000000000000000, 1.000000000000000000 ) ) ;
#362 = EDGE_LOOP ( 'NONE', ( #11 ) ) ;
#363 = EDGE_CURVE ( 'NONE', #17, #17, #375, .T. ) ;
#364 = VERTEX_POINT ( 'NONE', #105 ) ;
#365 = EDGE_LOOP ( 'NONE', ( #13 ) ) ;
#366 = PERSON_AND_ORGANIZATION ( #86, #127 ) ;
#367 = EDGE_LOOP ( 'NONE', ( #34 ) ) ;
#368 = CARTESIAN_POINT ( 'NONE',  ( -1.500000000000000222, 0.000000000000000000, -27.69999999999999929 ) ) ;
#369 = CC_DESIGN_PERSON_AND_ORGANIZATION_ASSIGNMENT ( #3, #347, ( #21 ) ) ;
#370 = FACE_BOUND ( 'NONE', #39, .T. ) ;
#371 = APPLICATION_PROTOCOL_DEFINITION ( 'international standard', 'config_control_design', 1994, #97 ) ;
#372 = VERTEX_POINT ( 'NONE', #48 ) ;
#373 = DATE_TIME_ROLE ( 'classification_date' ) ;
#374 = CIRCLE ( 'NONE', #304, 7.500000000000000000 ) ;
#375 = CIRCLE ( 'NONE', #160, 1.500000000000000222 ) ;
#376 = CALENDAR_DATE ( 2024, 14, 3 ) ;
#377 = CARTESIAN_POINT ( 'NONE',  ( 0.9001176554352212644, 0.1178861370132284342, -13.97103389947856833 ) ) ;
ENDSEC;
END-ISO-10303-21;
