ISO-10303-21;
HEADER;
FILE_DESCRIPTION (( 'STEP AP203' ),
    '1' );
FILE_NAME ('02SHA-1(M).STEP',
    '2024-08-16T04:19:57',
    ( '' ),
    ( '' ),
    'SwSTEP 2.0',
    'SolidWorks 2024',
    '' );
FILE_SCHEMA (( 'CONFIG_CONTROL_DESIGN' ));
ENDSEC;

DATA;
#1 = ORIENTED_EDGE ( 'NONE', *, *, #90, .T. ) ;
#2 = APPLICATION_PROTOCOL_DEFINITION ( 'international standard', 'config_control_design', 1994, #74 ) ;
#3 = VERTEX_POINT ( 'NONE', #326 ) ;
#4 = APPROVAL_DATE_TIME ( #187, #10 ) ;
#5 = VERTEX_POINT ( 'NONE', #164 ) ;
#6 = AXIS2_PLACEMENT_3D ( 'NONE', #47, #96, #126 ) ;
#7 = SECURITY_CLASSIFICATION_LEVEL ( 'unclassified' ) ;
#8 = EDGE_CURVE ( 'NONE', #138, #17, #118, .T. ) ;
#9 = EDGE_LOOP ( 'NONE', ( #151, #211, #55, #340 ) ) ;
#10 = APPROVAL ( #327, 'UNSPECIFIED' ) ;
#11 = CARTESIAN_POINT ( 'NONE',  ( 1.530808498934191521E-15, 3.180000000000000160, 12.25000000000000000 ) ) ;
#12 = DIRECTION ( 'NONE',  ( -0.000000000000000000, 1.000000000000000000, -0.000000000000000000 ) ) ;
#13 = CARTESIAN_POINT ( 'NONE',  ( 0.000000000000000000, 3.180000000000000160, 0.000000000000000000 ) ) ;
#14 = CYLINDRICAL_SURFACE ( 'NONE', #291, 3.250000000000000444 ) ;
#15 = CARTESIAN_POINT ( 'NONE',  ( 0.000000000000000000, 3.180000000000000160, 0.000000000000000000 ) ) ;
#16 = FACE_OUTER_BOUND ( 'NONE', #160, .T. ) ;
#17 = VERTEX_POINT ( 'NONE', #11 ) ;
#18 = LINE ( 'NONE', #282, #40 ) ;
#19 = VECTOR ( 'NONE', #198, 1000.000000000000000 ) ;
#20 = AXIS2_PLACEMENT_3D ( 'NONE', #309, #50, #93 ) ;
#21 = CIRCLE ( 'NONE', #63, 12.24999999999999467 ) ;
#22 = DIRECTION ( 'NONE',  ( 0.000000000000000000, 0.000000000000000000, 1.000000000000000000 ) ) ;
#23 = FACE_BOUND ( 'NONE', #243, .T. ) ;
#24 = CARTESIAN_POINT ( 'NONE',  ( 0.000000000000000000, 3.180000000000000160, 0.000000000000000000 ) ) ;
#25 = ORIENTED_EDGE ( 'NONE', *, *, #315, .T. ) ;
#26 = PERSON_AND_ORGANIZATION ( #290, #246 ) ;
#27 = APPROVAL_PERSON_ORGANIZATION ( #79, #286, #163 ) ;
#28 = ORIENTED_EDGE ( 'NONE', *, *, #249, .F. ) ;
#29 = VERTEX_POINT ( 'NONE', #195 ) ;
#30 = DATE_AND_TIME ( #321, #193 ) ;
#31 = ORIENTED_EDGE ( 'NONE', *, *, #273, .T. ) ;
#32 = AXIS2_PLACEMENT_3D ( 'NONE', #41, #86, #225 ) ;
#33 = APPROVAL_ROLE ( '' ) ;
#34 = ORIENTED_EDGE ( 'NONE', *, *, #90, .F. ) ;
#35 = APPROVAL_DATE_TIME ( #30, #159 ) ;
#36 = DIRECTION ( 'NONE',  ( 0.000000000000000000, 1.000000000000000000, 0.000000000000000000 ) ) ;
#37 = FACE_OUTER_BOUND ( 'NONE', #186, .T. ) ;
#38 = ADVANCED_FACE ( 'NONE', ( #39 ), #331, .T. ) ;
#39 = FACE_OUTER_BOUND ( 'NONE', #202, .T. ) ;
#40 = VECTOR ( 'NONE', #232, 1000.000000000000114 ) ;
#41 = CARTESIAN_POINT ( 'NONE',  ( 0.000000000000000000, 3.180000000000000160, 0.000000000000000000 ) ) ;
#42 = DIRECTION ( 'NONE',  ( 8.659560562354921765E-17, -0.7071067811865484609, 0.7071067811865465735 ) ) ;
#43 = ADVANCED_FACE ( 'NONE', ( #16 ), #141, .T. ) ;
#44 = CARTESIAN_POINT ( 'NONE',  ( 0.000000000000000000, 0.5000000000000004441, 0.000000000000000000 ) ) ;
#45 = VECTOR ( 'NONE', #318, 1000.000000000000000 ) ;
#46 = CC_DESIGN_APPROVAL ( #159, ( #221 ) ) ;
#47 = CARTESIAN_POINT ( 'NONE',  ( 0.000000000000000000, 3.180000000000000160, 0.000000000000000000 ) ) ;
#48 = CARTESIAN_POINT ( 'NONE',  ( 3.980102097228897245E-16, 0.000000000000000000, 3.250000000000000444 ) ) ;
#49 = VECTOR ( 'NONE', #178, 1000.000000000000114 ) ;
#50 = DIRECTION ( 'NONE',  ( 0.000000000000000000, -1.000000000000000000, 0.000000000000000000 ) ) ;
#51 = ORIENTED_EDGE ( 'NONE', *, *, #346, .T. ) ;
#52 =( NAMED_UNIT ( * ) SI_UNIT ( $, .STERADIAN. ) SOLID_ANGLE_UNIT ( ) );
#53 = EDGE_LOOP ( 'NONE', ( #162, #312, #230, #108 ) ) ;
#54 = DATE_AND_TIME ( #242, #114 ) ;
#55 = ORIENTED_EDGE ( 'NONE', *, *, #57, .T. ) ;
#56 = ORIENTED_EDGE ( 'NONE', *, *, #249, .T. ) ;
#57 = EDGE_CURVE ( 'NONE', #138, #297, #250, .T. ) ;
#58 = PERSON_AND_ORGANIZATION_ROLE ( 'classification_officer' ) ;
#59 = ORIENTED_EDGE ( 'NONE', *, *, #216, .F. ) ;
#60 = CIRCLE ( 'NONE', #104, 12.24999999999999467 ) ;
#61 = COORDINATED_UNIVERSAL_TIME_OFFSET ( 8, 0, .AHEAD. ) ;
#62 = ORIENTED_EDGE ( 'NONE', *, *, #344, .T. ) ;
#63 = AXIS2_PLACEMENT_3D ( 'NONE', #337, #260, #128 ) ;
#64 = DIRECTION ( 'NONE',  ( 0.000000000000000000, 0.000000000000000000, 1.000000000000000000 ) ) ;
#65 = CARTESIAN_POINT ( 'NONE',  ( 1.530808498934191127E-15, 0.000000000000000000, -12.24999999999999467 ) ) ;
#66 = DIRECTION ( 'NONE',  ( 0.000000000000000000, -1.000000000000000000, 0.000000000000000000 ) ) ;
#67 = CARTESIAN_POINT ( 'NONE',  ( 0.000000000000000000, 0.5000000000000004441, 0.000000000000000000 ) ) ;
#68 = ADVANCED_BREP_SHAPE_REPRESENTATION ( '02SHA-1(M)', ( #155, #342 ), #107 ) ;
#69 = EDGE_CURVE ( 'NONE', #17, #29, #275, .T. ) ;
#70 = CARTESIAN_POINT ( 'NONE',  ( 0.000000000000000000, 3.180000000000000160, -12.75000000000000000 ) ) ;
#71 = DIRECTION ( 'NONE',  ( -0.000000000000000000, -1.000000000000000000, -0.000000000000000000 ) ) ;
#72 = AXIS2_PLACEMENT_3D ( 'NONE', #336, #66, #89 ) ;
#73 = LINE ( 'NONE', #91, #49 ) ;
#74 = APPLICATION_CONTEXT ( 'configuration controlled 3d designs of mechanical parts and assemblies' ) ;
#75 = CARTESIAN_POINT ( 'NONE',  ( 0.000000000000000000, 2.680000000000000160, -12.75000000000000000 ) ) ;
#76 = DIRECTION ( 'NONE',  ( 0.000000000000000000, -0.000000000000000000, 1.000000000000000000 ) ) ;
#77 = APPLICATION_PROTOCOL_DEFINITION ( 'international standard', 'config_control_design', 1994, #182 ) ;
#78 = CIRCLE ( 'NONE', #271, 3.250000000000000444 ) ;
#79 = PERSON_AND_ORGANIZATION ( #290, #246 ) ;
#80 = ADVANCED_FACE ( 'NONE', ( #333, #120 ), #227, .T. ) ;
#81 = APPROVAL_STATUS ( 'not_yet_approved' ) ;
#82 = PERSON_AND_ORGANIZATION ( #290, #246 ) ;
#83 = AXIS2_PLACEMENT_3D ( 'NONE', #67, #245, #276 ) ;
#84 = DIRECTION ( 'NONE',  ( -0.000000000000000000, -1.000000000000000000, -0.000000000000000000 ) ) ;
#85 = DIRECTION ( 'NONE',  ( -0.000000000000000000, 1.000000000000000000, -0.000000000000000000 ) ) ;
#86 = DIRECTION ( 'NONE',  ( 0.000000000000000000, -1.000000000000000000, 0.000000000000000000 ) ) ;
#87 = DIRECTION ( 'NONE',  ( 0.000000000000000000, 0.000000000000000000, -1.000000000000000000 ) ) ;
#88 = CC_DESIGN_APPROVAL ( #286, ( #152 ) ) ;
#89 = DIRECTION ( 'NONE',  ( 0.000000000000000000, 0.000000000000000000, 1.000000000000000000 ) ) ;
#90 = EDGE_CURVE ( 'NONE', #5, #288, #219, .T. ) ;
#91 = CARTESIAN_POINT ( 'NONE',  ( 0.000000000000000000, 0.5000000000000004441, 12.75000000000000000 ) ) ;
#92 = EDGE_LOOP ( 'NONE', ( #154, #31 ) ) ;
#93 = DIRECTION ( 'NONE',  ( 0.000000000000000000, 0.000000000000000000, 1.000000000000000000 ) ) ;
#94 = PRODUCT_RELATED_PRODUCT_CATEGORY ( 'detail', '', ( #180 ) ) ;
#95 = CARTESIAN_POINT ( 'NONE',  ( 1.561424668912874914E-15, 3.180000000000000160, 12.75000000000000000 ) ) ;
#96 = DIRECTION ( 'NONE',  ( -0.000000000000000000, -1.000000000000000000, -0.000000000000000000 ) ) ;
#97 = EDGE_LOOP ( 'NONE', ( #62, #158 ) ) ;
#98 = EDGE_CURVE ( 'NONE', #29, #297, #206, .T. ) ;
#99 = AXIS2_PLACEMENT_3D ( 'NONE', #115, #168, #116 ) ;
#100 = EDGE_CURVE ( 'NONE', #288, #295, #248, .T. ) ;
#101 = CARTESIAN_POINT ( 'NONE',  ( 0.000000000000000000, 0.000000000000000000, 0.000000000000000000 ) ) ;
#102 = ORIENTED_EDGE ( 'NONE', *, *, #315, .F. ) ;
#103 = APPROVAL_DATE_TIME ( #131, #286 ) ;
#104 = AXIS2_PLACEMENT_3D ( 'NONE', #252, #84, #64 ) ;
#105 = AXIS2_PLACEMENT_3D ( 'NONE', #205, #201, #76 ) ;
#106 = MECHANICAL_CONTEXT ( 'NONE', #182, 'mechanical' ) ;
#107 =( GEOMETRIC_REPRESENTATION_CONTEXT ( 3 ) GLOBAL_UNCERTAINTY_ASSIGNED_CONTEXT ( ( #121 ) ) GLOBAL_UNIT_ASSIGNED_CONTEXT ( ( #287, #235, #52 ) ) REPRESENTATION_CONTEXT ( 'NONE', 'WORKASPACE' ) );
#108 = ORIENTED_EDGE ( 'NONE', *, *, #117, .F. ) ;
#109 = CALENDAR_DATE ( 2024, 16, 8 ) ;
#110 = ORIENTED_EDGE ( 'NONE', *, *, #273, .F. ) ;
#111 = ORIENTED_EDGE ( 'NONE', *, *, #220, .T. ) ;
#112 = VECTOR ( 'NONE', #334, 1000.000000000000000 ) ;
#113 = DIRECTION ( 'NONE',  ( 0.000000000000000000, 1.000000000000000000, 0.000000000000000000 ) ) ;
#114 = LOCAL_TIME ( 12, 19, 57.00000000000000000, #183 ) ;
#115 = CARTESIAN_POINT ( 'NONE',  ( 0.000000000000000000, 0.5000000000000004441, 0.000000000000000000 ) ) ;
#116 = DIRECTION ( 'NONE',  ( 0.000000000000000000, 0.000000000000000000, 1.000000000000000000 ) ) ;
#117 = EDGE_CURVE ( 'NONE', #297, #181, #308, .T. ) ;
#118 = CIRCLE ( 'NONE', #167, 12.25000000000000000 ) ;
#119 = DIRECTION ( 'NONE',  ( 0.000000000000000000, 1.000000000000000000, 0.000000000000000000 ) ) ;
#120 = FACE_BOUND ( 'NONE', #322, .T. ) ;
#121 = UNCERTAINTY_MEASURE_WITH_UNIT (LENGTH_MEASURE( 1.000000000000000082E-05 ), #287, 'distance_accuracy_value', 'NONE');
#122 = VERTEX_POINT ( 'NONE', #65 ) ;
#123 = EDGE_CURVE ( 'NONE', #122, #3, #60, .T. ) ;
#124 = FACE_OUTER_BOUND ( 'NONE', #191, .T. ) ;
#125 = CIRCLE ( 'NONE', #20, 12.75000000000000000 ) ;
#126 = DIRECTION ( 'NONE',  ( 0.000000000000000000, 0.000000000000000000, -1.000000000000000000 ) ) ;
#127 = ADVANCED_FACE ( 'NONE', ( #196 ), #14, .F. ) ;
#128 = DIRECTION ( 'NONE',  ( 0.000000000000000000, 0.000000000000000000, 1.000000000000000000 ) ) ;
#129 = CYLINDRICAL_SURFACE ( 'NONE', #6, 3.250000000000000444 ) ;
#130 = CLOSED_SHELL ( 'NONE', ( #38, #175, #127, #316, #80, #285, #43, #280, #156, #305 ) ) ;
#131 = DATE_AND_TIME ( #296, #147 ) ;
#132 = EDGE_LOOP ( 'NONE', ( #293, #135, #25, #258 ) ) ;
#133 = EDGE_CURVE ( 'NONE', #218, #181, #341, .T. ) ;
#134 = COORDINATED_UNIVERSAL_TIME_OFFSET ( 8, 0, .AHEAD. ) ;
#135 = ORIENTED_EDGE ( 'NONE', *, *, #344, .F. ) ;
#136 = PRODUCT_DEFINITION_SHAPE ( 'NONE', 'NONE',  #256 ) ;
#137 = COORDINATED_UNIVERSAL_TIME_OFFSET ( 8, 0, .AHEAD. ) ;
#138 = VERTEX_POINT ( 'NONE', #171 ) ;
#139 = SHAPE_DEFINITION_REPRESENTATION ( #136, #68 ) ;
#140 = DIRECTION ( 'NONE',  ( 0.000000000000000000, 0.000000000000000000, 1.000000000000000000 ) ) ;
#141 = CYLINDRICAL_SURFACE ( 'NONE', #213, 12.75000000000000000 ) ;
#142 = AXIS2_PLACEMENT_3D ( 'NONE', #44, #12, #146 ) ;
#143 = DIRECTION ( 'NONE',  ( 0.000000000000000000, -0.000000000000000000, 1.000000000000000000 ) ) ;
#144 = DIRECTION ( 'NONE',  ( 0.000000000000000000, 1.000000000000000000, 0.000000000000000000 ) ) ;
#145 = DIRECTION ( 'NONE',  ( -0.000000000000000000, -1.000000000000000000, -0.000000000000000000 ) ) ;
#146 = DIRECTION ( 'NONE',  ( 0.000000000000000000, 0.000000000000000000, 1.000000000000000000 ) ) ;
#147 = LOCAL_TIME ( 12, 19, 57.00000000000000000, #137 ) ;
#148 = CC_DESIGN_DATE_AND_TIME_ASSIGNMENT ( #263, #262, ( #221 ) ) ;
#149 = DIRECTION ( 'NONE',  ( -0.000000000000000000, -1.000000000000000000, -0.000000000000000000 ) ) ;
#150 = DIRECTION ( 'NONE',  ( 0.000000000000000000, 0.000000000000000000, -1.000000000000000000 ) ) ;
#151 = ORIENTED_EDGE ( 'NONE', *, *, #69, .F. ) ;
#152 = PRODUCT_DEFINITION_FORMATION_WITH_SPECIFIED_SOURCE ( 'ANY', '', #180, .NOT_KNOWN. ) ;
#153 = FACE_OUTER_BOUND ( 'NONE', #97, .T. ) ;
#154 = ORIENTED_EDGE ( 'NONE', *, *, #8, .T. ) ;
#155 = MANIFOLD_SOLID_BREP ( '\X2\5c0e89d2\X0\1', #130 ) ;
#156 = ADVANCED_FACE ( 'NONE', ( #269 ), #192, .T. ) ;
#157 = VECTOR ( 'NONE', #42, 1000.000000000000000 ) ;
#158 = ORIENTED_EDGE ( 'NONE', *, *, #123, .T. ) ;
#159 = APPROVAL ( #294, 'UNSPECIFIED' ) ;
#160 = EDGE_LOOP ( 'NONE', ( #188, #217, #239, #238 ) ) ;
#161 = PERSON_AND_ORGANIZATION ( #290, #246 ) ;
#162 = ORIENTED_EDGE ( 'NONE', *, *, #274, .T. ) ;
#163 = APPROVAL_ROLE ( '' ) ;
#164 = CARTESIAN_POINT ( 'NONE',  ( 3.980102097228897245E-16, 3.180000000000000160, 3.250000000000000444 ) ) ;
#165 = DIRECTION ( 'NONE',  ( 0.000000000000000000, 0.000000000000000000, -1.000000000000000000 ) ) ;
#166 = DIRECTION ( 'NONE',  ( 0.000000000000000000, 0.000000000000000000, 1.000000000000000000 ) ) ;
#167 = AXIS2_PLACEMENT_3D ( 'NONE', #268, #36, #140 ) ;
#168 = DIRECTION ( 'NONE',  ( -0.000000000000000000, 1.000000000000000000, -0.000000000000000000 ) ) ;
#169 = VECTOR ( 'NONE', #71, 1000.000000000000000 ) ;
#170 = CARTESIAN_POINT ( 'NONE',  ( 0.000000000000000000, 0.5000000000000004441, -12.75000000000000000 ) ) ;
#171 = CARTESIAN_POINT ( 'NONE',  ( 0.000000000000000000, 3.180000000000000160, -12.25000000000000000 ) ) ;
#172 = CC_DESIGN_APPROVAL ( #10, ( #256 ) ) ;
#173 = FACE_OUTER_BOUND ( 'NONE', #9, .T. ) ;
#174 = CARTESIAN_POINT ( 'NONE',  ( 0.000000000000000000, 0.000000000000000000, 0.000000000000000000 ) ) ;
#175 = ADVANCED_FACE ( 'NONE', ( #37 ), #236, .T. ) ;
#176 = CARTESIAN_POINT ( 'NONE',  ( 3.980102097228897245E-16, 3.180000000000000160, 3.250000000000000444 ) ) ;
#177 = ORIENTED_EDGE ( 'NONE', *, *, #274, .F. ) ;
#178 = DIRECTION ( 'NONE',  ( 0.000000000000000000, 0.7071067811865451302, 0.7071067811865500152 ) ) ;
#179 = ORIENTED_EDGE ( 'NONE', *, *, #133, .F. ) ;
#180 = PRODUCT ( '02SHA-1(M)', '02SHA-1(M)', '', ( #106 ) ) ;
#181 = VERTEX_POINT ( 'NONE', #170 ) ;
#182 = APPLICATION_CONTEXT ( 'configuration controlled 3d designs of mechanical parts and assemblies' ) ;
#183 = COORDINATED_UNIVERSAL_TIME_OFFSET ( 8, 0, .AHEAD. ) ;
#184 = CIRCLE ( 'NONE', #251, 3.250000000000000444 ) ;
#185 = PERSON_AND_ORGANIZATION_ROLE ( 'creator' ) ;
#186 = EDGE_LOOP ( 'NONE', ( #234, #240, #179, #102 ) ) ;
#187 = DATE_AND_TIME ( #109, #300 ) ;
#188 = ORIENTED_EDGE ( 'NONE', *, *, #320, .F. ) ;
#189 = EDGE_CURVE ( 'NONE', #181, #218, #277, .T. ) ;
#190 = CALENDAR_DATE ( 2024, 16, 8 ) ;
#191 = EDGE_LOOP ( 'NONE', ( #28, #1, #264, #215 ) ) ;
#192 = CONICAL_SURFACE ( 'NONE', #310, 12.75000000000000000, 0.7853981633974517207 ) ;
#193 = LOCAL_TIME ( 12, 19, 57.00000000000000000, #61 ) ;
#194 = DIRECTION ( 'NONE',  ( -0.000000000000000000, -1.000000000000000000, -0.000000000000000000 ) ) ;
#195 = CARTESIAN_POINT ( 'NONE',  ( 1.561424668912874914E-15, 2.680000000000000160, 12.75000000000000000 ) ) ;
#196 = FACE_OUTER_BOUND ( 'NONE', #244, .T. ) ;
#197 = DIRECTION ( 'NONE',  ( -0.000000000000000000, -1.000000000000000000, -0.000000000000000000 ) ) ;
#198 = DIRECTION ( 'NONE',  ( 0.000000000000000000, -0.7071067811865484609, -0.7071067811865465735 ) ) ;
#199 = FACE_OUTER_BOUND ( 'NONE', #53, .T. ) ;
#200 = DESIGN_CONTEXT ( 'detailed design', #74, 'design' ) ;
#201 = DIRECTION ( 'NONE',  ( 0.000000000000000000, 1.000000000000000000, 0.000000000000000000 ) ) ;
#202 = EDGE_LOOP ( 'NONE', ( #110, #289, #177, #299 ) ) ;
#203 = CARTESIAN_POINT ( 'NONE',  ( 0.000000000000000000, 3.180000000000000160, 0.000000000000000000 ) ) ;
#204 = CYLINDRICAL_SURFACE ( 'NONE', #207, 12.75000000000000000 ) ;
#205 = CARTESIAN_POINT ( 'NONE',  ( 0.000000000000000000, 0.000000000000000000, 0.000000000000000000 ) ) ;
#206 = CIRCLE ( 'NONE', #72, 12.75000000000000000 ) ;
#207 = AXIS2_PLACEMENT_3D ( 'NONE', #229, #149, #150 ) ;
#208 = COORDINATED_UNIVERSAL_TIME_OFFSET ( 8, 0, .AHEAD. ) ;
#209 = CC_DESIGN_PERSON_AND_ORGANIZATION_ASSIGNMENT ( #323, #298, ( #180 ) ) ;
#210 = PERSON_AND_ORGANIZATION ( #290, #246 ) ;
#211 = ORIENTED_EDGE ( 'NONE', *, *, #8, .F. ) ;
#212 = PERSON_AND_ORGANIZATION ( #290, #246 ) ;
#213 = AXIS2_PLACEMENT_3D ( 'NONE', #13, #145, #87 ) ;
#214 = DIRECTION ( 'NONE',  ( 0.000000000000000000, 0.000000000000000000, 1.000000000000000000 ) ) ;
#215 = ORIENTED_EDGE ( 'NONE', *, *, #220, .F. ) ;
#216 = EDGE_CURVE ( 'NONE', #288, #5, #184, .T. ) ;
#217 = ORIENTED_EDGE ( 'NONE', *, *, #98, .T. ) ;
#218 = VERTEX_POINT ( 'NONE', #270 ) ;
#219 = CIRCLE ( 'NONE', #226, 3.250000000000000444 ) ;
#220 = EDGE_CURVE ( 'NONE', #348, #295, #78, .T. ) ;
#221 = SECURITY_CLASSIFICATION ( '', '', #7 ) ;
#222 = CARTESIAN_POINT ( 'NONE',  ( 0.000000000000000000, 3.180000000000000160, -3.250000000000000444 ) ) ;
#223 = CC_DESIGN_PERSON_AND_ORGANIZATION_ASSIGNMENT ( #161, #267, ( #152 ) ) ;
#224 = CARTESIAN_POINT ( 'NONE',  ( 1.500192328955507734E-15, 3.180000000000000160, 12.25000000000000000 ) ) ;
#225 = DIRECTION ( 'NONE',  ( 0.000000000000000000, 0.000000000000000000, -1.000000000000000000 ) ) ;
#226 = AXIS2_PLACEMENT_3D ( 'NONE', #228, #119, #302 ) ;
#227 = PLANE ( 'NONE',  #330 ) ;
#228 = CARTESIAN_POINT ( 'NONE',  ( 0.000000000000000000, 3.180000000000000160, 0.000000000000000000 ) ) ;
#229 = CARTESIAN_POINT ( 'NONE',  ( 0.000000000000000000, 3.180000000000000160, 0.000000000000000000 ) ) ;
#230 = ORIENTED_EDGE ( 'NONE', *, *, #133, .T. ) ;
#231 = CIRCLE ( 'NONE', #324, 12.25000000000000000 ) ;
#232 = DIRECTION ( 'NONE',  ( 8.659560562354962440E-17, 0.7071067811865451302, -0.7071067811865500152 ) ) ;
#233 = CARTESIAN_POINT ( 'NONE',  ( 0.000000000000000000, 3.180000000000000160, -3.250000000000000444 ) ) ;
#234 = ORIENTED_EDGE ( 'NONE', *, *, #123, .F. ) ;
#235 =( NAMED_UNIT ( * ) PLANE_ANGLE_UNIT ( ) SI_UNIT ( $, .RADIAN. ) );
#236 = CONICAL_SURFACE ( 'NONE', #83, 12.75000000000000000, 0.7853981633974517207 ) ;
#237 = CONICAL_SURFACE ( 'NONE', #335, 12.25000000000000000, 0.7853981633974469467 ) ;
#238 = ORIENTED_EDGE ( 'NONE', *, *, #189, .T. ) ;
#239 = ORIENTED_EDGE ( 'NONE', *, *, #117, .T. ) ;
#240 = ORIENTED_EDGE ( 'NONE', *, *, #259, .T. ) ;
#241 = CIRCLE ( 'NONE', #253, 3.250000000000000444 ) ;
#242 = CALENDAR_DATE ( 2024, 16, 8 ) ;
#243 = EDGE_LOOP ( 'NONE', ( #51, #111 ) ) ;
#244 = EDGE_LOOP ( 'NONE', ( #314, #56, #328, #284 ) ) ;
#245 = DIRECTION ( 'NONE',  ( -0.000000000000000000, 1.000000000000000000, -0.000000000000000000 ) ) ;
#246 = ORGANIZATION ( 'UNSPECIFIED', 'UNSPECIFIED', '' ) ;
#247 = CARTESIAN_POINT ( 'NONE',  ( 0.000000000000000000, 0.000000000000000000, 0.000000000000000000 ) ) ;
#248 = LINE ( 'NONE', #222, #112 ) ;
#249 = EDGE_CURVE ( 'NONE', #5, #348, #254, .T. ) ;
#250 = LINE ( 'NONE', #272, #19 ) ;
#251 = AXIS2_PLACEMENT_3D ( 'NONE', #332, #113, #166 ) ;
#252 = CARTESIAN_POINT ( 'NONE',  ( 0.000000000000000000, 0.000000000000000000, 0.000000000000000000 ) ) ;
#253 = AXIS2_PLACEMENT_3D ( 'NONE', #174, #255, #281 ) ;
#254 = LINE ( 'NONE', #176, #45 ) ;
#255 = DIRECTION ( 'NONE',  ( 0.000000000000000000, 1.000000000000000000, 0.000000000000000000 ) ) ;
#256 = PRODUCT_DEFINITION ( 'UNKNOWN', '', #152, #200 ) ;
#257 = DIRECTION ( 'NONE',  ( 0.000000000000000000, 1.000000000000000000, 0.000000000000000000 ) ) ;
#258 = ORIENTED_EDGE ( 'NONE', *, *, #189, .F. ) ;
#259 = EDGE_CURVE ( 'NONE', #122, #181, #18, .T. ) ;
#260 = DIRECTION ( 'NONE',  ( -0.000000000000000000, -1.000000000000000000, -0.000000000000000000 ) ) ;
#261 = CC_DESIGN_PERSON_AND_ORGANIZATION_ASSIGNMENT ( #212, #185, ( #256 ) ) ;
#262 = DATE_TIME_ROLE ( 'classification_date' ) ;
#263 = DATE_AND_TIME ( #190, #283 ) ;
#264 = ORIENTED_EDGE ( 'NONE', *, *, #100, .T. ) ;
#265 = DATE_TIME_ROLE ( 'creation_date' ) ;
#266 = APPROVAL_ROLE ( '' ) ;
#267 = PERSON_AND_ORGANIZATION_ROLE ( 'design_supplier' ) ;
#268 = CARTESIAN_POINT ( 'NONE',  ( 0.000000000000000000, 3.180000000000000160, 0.000000000000000000 ) ) ;
#269 = FACE_OUTER_BOUND ( 'NONE', #132, .T. ) ;
#270 = CARTESIAN_POINT ( 'NONE',  ( 1.561424668912874914E-15, 0.5000000000000004441, 12.75000000000000000 ) ) ;
#271 = AXIS2_PLACEMENT_3D ( 'NONE', #247, #257, #22 ) ;
#272 = CARTESIAN_POINT ( 'NONE',  ( 0.000000000000000000, 3.180000000000000160, -12.25000000000000000 ) ) ;
#273 = EDGE_CURVE ( 'NONE', #17, #138, #231, .T. ) ;
#274 = EDGE_CURVE ( 'NONE', #297, #29, #125, .T. ) ;
#275 = LINE ( 'NONE', #224, #157 ) ;
#276 = DIRECTION ( 'NONE',  ( 0.000000000000000000, 0.000000000000000000, 1.000000000000000000 ) ) ;
#277 = CIRCLE ( 'NONE', #142, 12.75000000000000000 ) ;
#278 = CC_DESIGN_SECURITY_CLASSIFICATION ( #221, ( #152 ) ) ;
#279 = DIRECTION ( 'NONE',  ( 0.000000000000000000, 1.000000000000000000, 0.000000000000000000 ) ) ;
#280 = ADVANCED_FACE ( 'NONE', ( #124 ), #129, .F. ) ;
#281 = DIRECTION ( 'NONE',  ( 0.000000000000000000, 0.000000000000000000, 1.000000000000000000 ) ) ;
#282 = CARTESIAN_POINT ( 'NONE',  ( 1.561424668912875111E-15, 0.5000000000000004441, -12.75000000000000000 ) ) ;
#283 = LOCAL_TIME ( 12, 19, 57.00000000000000000, #134 ) ;
#284 = ORIENTED_EDGE ( 'NONE', *, *, #100, .F. ) ;
#285 = ADVANCED_FACE ( 'NONE', ( #153, #23 ), #345, .F. ) ;
#286 = APPROVAL ( #81, 'UNSPECIFIED' ) ;
#287 =( LENGTH_UNIT ( ) NAMED_UNIT ( * ) SI_UNIT ( .MILLI., .METRE. ) );
#288 = VERTEX_POINT ( 'NONE', #233 ) ;
#289 = ORIENTED_EDGE ( 'NONE', *, *, #69, .T. ) ;
#290 = PERSON ( 'UNSPECIFIED', 'UNSPECIFIED', 'UNSPECIFIED', ('UNSPECIFIED'), ('UNSPECIFIED'), ('UNSPECIFIED') ) ;
#291 = AXIS2_PLACEMENT_3D ( 'NONE', #304, #197, #165 ) ;
#292 = PERSON_AND_ORGANIZATION ( #290, #246 ) ;
#293 = ORIENTED_EDGE ( 'NONE', *, *, #259, .F. ) ;
#294 = APPROVAL_STATUS ( 'not_yet_approved' ) ;
#295 = VERTEX_POINT ( 'NONE', #343 ) ;
#296 = CALENDAR_DATE ( 2024, 16, 8 ) ;
#297 = VERTEX_POINT ( 'NONE', #75 ) ;
#298 = PERSON_AND_ORGANIZATION_ROLE ( 'design_owner' ) ;
#299 = ORIENTED_EDGE ( 'NONE', *, *, #57, .F. ) ;
#300 = LOCAL_TIME ( 12, 19, 57.00000000000000000, #208 ) ;
#301 = CC_DESIGN_DATE_AND_TIME_ASSIGNMENT ( #54, #265, ( #256 ) ) ;
#302 = DIRECTION ( 'NONE',  ( 0.000000000000000000, 0.000000000000000000, 1.000000000000000000 ) ) ;
#303 = DIRECTION ( 'NONE',  ( 0.000000000000000000, 0.000000000000000000, 1.000000000000000000 ) ) ;
#304 = CARTESIAN_POINT ( 'NONE',  ( 0.000000000000000000, 3.180000000000000160, 0.000000000000000000 ) ) ;
#305 = ADVANCED_FACE ( 'NONE', ( #173 ), #237, .T. ) ;
#306 = APPROVAL_PERSON_ORGANIZATION ( #82, #10, #33 ) ;
#307 = CARTESIAN_POINT ( 'NONE',  ( 0.000000000000000000, 0.5000000000000004441, 0.000000000000000000 ) ) ;
#308 = LINE ( 'NONE', #70, #317 ) ;
#309 = CARTESIAN_POINT ( 'NONE',  ( 0.000000000000000000, 2.680000000000000160, 0.000000000000000000 ) ) ;
#310 = AXIS2_PLACEMENT_3D ( 'NONE', #307, #85, #303 ) ;
#311 = LINE ( 'NONE', #95, #169 ) ;
#312 = ORIENTED_EDGE ( 'NONE', *, *, #320, .T. ) ;
#313 = DIRECTION ( 'NONE',  ( 0.000000000000000000, -1.000000000000000000, 0.000000000000000000 ) ) ;
#314 = ORIENTED_EDGE ( 'NONE', *, *, #216, .T. ) ;
#315 = EDGE_CURVE ( 'NONE', #3, #218, #73, .T. ) ;
#316 = ADVANCED_FACE ( 'NONE', ( #199 ), #204, .T. ) ;
#317 = VECTOR ( 'NONE', #194, 1000.000000000000000 ) ;
#318 = DIRECTION ( 'NONE',  ( -0.000000000000000000, -1.000000000000000000, -0.000000000000000000 ) ) ;
#319 = PERSON_AND_ORGANIZATION_ROLE ( 'creator' ) ;
#320 = EDGE_CURVE ( 'NONE', #29, #218, #311, .T. ) ;
#321 = CALENDAR_DATE ( 2024, 16, 8 ) ;
#322 = EDGE_LOOP ( 'NONE', ( #59, #34 ) ) ;
#323 = PERSON_AND_ORGANIZATION ( #290, #246 ) ;
#324 = AXIS2_PLACEMENT_3D ( 'NONE', #24, #279, #347 ) ;
#325 = DIRECTION ( 'NONE',  ( 1.000000000000000000, 0.000000000000000000, 0.000000000000000000 ) ) ;
#326 = CARTESIAN_POINT ( 'NONE',  ( 0.000000000000000000, 0.000000000000000000, 12.24999999999999467 ) ) ;
#327 = APPROVAL_STATUS ( 'not_yet_approved' ) ;
#328 = ORIENTED_EDGE ( 'NONE', *, *, #346, .F. ) ;
#329 = CC_DESIGN_PERSON_AND_ORGANIZATION_ASSIGNMENT ( #210, #58, ( #221 ) ) ;
#330 = AXIS2_PLACEMENT_3D ( 'NONE', #15, #144, #143 ) ;
#331 = CONICAL_SURFACE ( 'NONE', #32, 12.25000000000000000, 0.7853981633974469467 ) ;
#332 = CARTESIAN_POINT ( 'NONE',  ( 0.000000000000000000, 3.180000000000000160, 0.000000000000000000 ) ) ;
#333 = FACE_OUTER_BOUND ( 'NONE', #92, .T. ) ;
#334 = DIRECTION ( 'NONE',  ( -0.000000000000000000, -1.000000000000000000, -0.000000000000000000 ) ) ;
#335 = AXIS2_PLACEMENT_3D ( 'NONE', #203, #313, #339 ) ;
#336 = CARTESIAN_POINT ( 'NONE',  ( 0.000000000000000000, 2.680000000000000160, 0.000000000000000000 ) ) ;
#337 = CARTESIAN_POINT ( 'NONE',  ( 0.000000000000000000, 0.000000000000000000, 0.000000000000000000 ) ) ;
#338 = CC_DESIGN_PERSON_AND_ORGANIZATION_ASSIGNMENT ( #26, #319, ( #152 ) ) ;
#339 = DIRECTION ( 'NONE',  ( 0.000000000000000000, 0.000000000000000000, -1.000000000000000000 ) ) ;
#340 = ORIENTED_EDGE ( 'NONE', *, *, #98, .F. ) ;
#341 = CIRCLE ( 'NONE', #99, 12.75000000000000000 ) ;
#342 = AXIS2_PLACEMENT_3D ( 'NONE', #101, #214, #325 ) ;
#343 = CARTESIAN_POINT ( 'NONE',  ( 0.000000000000000000, 0.000000000000000000, -3.250000000000000444 ) ) ;
#344 = EDGE_CURVE ( 'NONE', #3, #122, #21, .T. ) ;
#345 = PLANE ( 'NONE',  #105 ) ;
#346 = EDGE_CURVE ( 'NONE', #295, #348, #241, .T. ) ;
#347 = DIRECTION ( 'NONE',  ( 0.000000000000000000, 0.000000000000000000, 1.000000000000000000 ) ) ;
#348 = VERTEX_POINT ( 'NONE', #48 ) ;
#349 = APPROVAL_PERSON_ORGANIZATION ( #292, #159, #266 ) ;
ENDSEC;
END-ISO-10303-21;
